segunda-feira, 13 de maio de 2013

Sword Art Online-Crossing Field

Yo Minna eu(Tsuna-kun) estou de volta depois de um pouco mais de um ano voltei pra postar ai a Primeira OP  de SAO(Sword Art Online)



CROSSING FIELD:

Intro:

GUITAR 1:

e|------------8------------10--10-p-8----------6-------------|
B|--6--8--10-------6-----------------------10-----10--8--10--|
G|--------------------9--------------------------------------|
D|-----------------------------------------------------------|
A|-----------------------------------------------------------|
E|-----------------------------------------------------------|



GUITAR 1:

e|--13----12--8--8-h-10----10--10--10--10--|
B|-----------------------------------------|
G|-----------------------------------------|
D|-----------------------------------------|
A|-----------------------------------------|
E|-----------------------------------------|


Verse/Estrofa:

GUITAR 1:

e|-------------------------------------------------------|
B|-------------8------------------------8----------------|
G|--10--9--10-----7----7--9--10--9--10-----7------7--10--|
D|-------------------------------------------------------|
A|-------------------------------------------------------|
E|-------------------------------------------------------|



GUITAR 1:

e|--8--------------------|
B|-----------------------|
G|-----10------9--7------|
D|-------------------10--|
A|-----------------------|
E|-----------------------|


GUITAR 1:

e|-----------------------------------------8----8---------|--------------------------|
B|-------------8------------------------8-----------------|--8--8-p-6-------------8--|
G|--10--9--10-----7----7--9--10--9--10-------------10--9--|----------------9--10-----|
D|--------------------------------------------------------|--------------------------|
A|--------------------------------------------------------|--------------------------|
E|--------------------------------------------------------|--------------------------|


GUITAR 1:

e|--------------------------------------|
B|--10--------8-------------------------|
G|--------10-----9------7--10-------10--|
D|------------------10-----------9------|
A|--------------------------------------|
E|--------------------------------------|


GUITAR 1:

e|-----------------------------------------------|------------------|
B|--8------8--10--11----8------8------8--13--11--|--8----10--6-h-8--|
G|-----10------------------10-----10-------------|------------------|
D|-----------------------------------------------|------------------|
A|-----------------------------------------------|------------------|
E|-----------------------------------------------|------------------|


GUITAR 1

e|------------8------------10--10-p-8----------6-----------------|-----------------------------------------------10------|
B|--6--8--10-------6-----------------------10-----10--8--11--10--|--8--10--8--10--8--10--8--10----8--10--10--10------10--|
G|--------------------9------------------------------------------|-------------------------------------------------------|
D|---------------------------------------------------------------|-------------------------------------------------------|
A|---------------------------------------------------------------|-------------------------------------------------------|
E|---------------------------------------------------------------|-------------------------------------------------------|



GUITAR 1:

e|------------8------------10--10-p-8----------6---------8------|-----------------------------------8----------10-----|
B|--6--8--10-------6-----------------------10-----10--8-----10--|--8--10--8--10--8--10--8--10----8-----11--10------8--|
G|--------------------9-----------------------------------------|-----------------------------------------------------|
D|--------------------------------------------------------------|-----------------------------------------------------|
A|--------------------------------------------------------------|-----------------------------------------------------|
E|--------------------------------------------------------------|-----------------------------------------------------|


GUITAR 1:

e|---------8------------------------------|
B|--8---------10------11--10--8--6--8-----|
G|-----10------------------------------7--|
D|----------------------------------------|
A|----------------------------------------|
E|----------------------------------------|


GUITAR 1:

e|------------------------------------------------------------------------|
B|--10--10--10--10--10--8------------8------------------------------------|
G|-------------------------10-----------10--9-------7--7----7--7----7--7--|
D|-----------------------------10--------------10-------------------------|
A|------------------------------------------------------------------------|
E|------------------------------------------------------------------------|


GUITAR 1:

e|--------------------------------------------------------------------|
B|--10---------------------------------10-----------------------------|
G|------12--10--12--9----------------------12--10--12--9----------10--|
D|---------------------10--14--12-------------------------10--14------|
A|--------------------------------------------------------------------|
E|--------------------------------------------------------------------|

Por Tsuna-kun
Em Breve Vídeo-Aula

quinta-feira, 2 de maio de 2013

Gintama - Pray - Tommy Heavenly



Eae gente tudo bem? faz tempo que eu nao posto mas bora retomar isso XD Segue abaixo a Tablatura da Banda
Tommy Heavenly6 - Pray - Do Anime Gintama:

Lembre-se que a afinação dessa Música é Em Drop D (Corda mizona Afinada em D)


Pray - Tommy Heavenly6
Intro:
Primeira Guitarra:
e|----------------------------------------------------------------------| B|----------------------------------------------------------------------| G|--11----------------11------------------------------------------------| D|--9----9----7/9-----9----9-----12---14--------------------------------|(4x) A|--x----x----x-------x----x-----x-----x--------------------------------| D|--9----9----7/9-----9----9-----12---14--------------------------------| Segunda Guitarra: e|-----------------------------------------------| B|-----------------------------------------------| G|--------------7--------------------------------| D|--9-----5-----7---7----------------------------| (4x) A|--9-----5-----5---7----------------------------| D|--9-----5---------7----------------------------| Verso: e|-----------------------------------------------| B|-----------------------------------------------| G|--------------7--------------------------------| D|--9-----5-----7---7----------------------------| (4x) A|--9-----5-----5---7----------------------------| D|--9-----5---------7----------------------------| Pre-Chorus: e|----------------------------------------|---------------------------------| B|----------------------------------------|---------------------------------| G|----------------4-----1/2--2222---------|--------------------6---8--------| D|---1-----2------4-----xx---xxxxx--------|(3x)---------1---2--6---8--------| A|---1-----2------2-----1/2--2222---------|-------------1---2--4---6--------| D|---1-----2------------------------------|-------------1---2---------------| Chorus: e|------------------------------------------------|-------------------------| B|------------------------------------------------|-------------------------| G|--------------4-----------------------6----8----|-----------9----11-------| D|---6-----2----4------4--2--1-----2----6----8----|(2x)-------9----11-------| A|---6-----2----2------4--2--1-----2----4----6----|-----------7----9--------| D|---6-----2-----------4--2--1-----2--------------|-------------------------| Intro (Novamente):
Primeira Guitarra:
e|----------------------------------------------------------------------| B|----------------------------------------------------------------------| G|--11----------------11------------------------------------------------| D|--9----9----7/9-----9----9-----12---14--------------------------------|(4x) A|--x----x----x-------x----x-----x-----x--------------------------------| D|--9----9----7/9-----9----9-----12---14--------------------------------| Segunda Guitarra: e|-----------------------------------------------| B|-----------------------------------------------| G|--------------7--------------------------------| D|--9-----5-----7---7----------------------------| (4x) A|--9-----5-----5---7----------------------------| D|--9-----5---------7----------------------------| Verso: e|-----------------------------------------------| B|-----------------------------------------------| G|--------------7--------------------------------| D|--9-----5-----7---7----------------------------|(4x) A|--9-----5-----5---7----------------------------| D|--9-----5---------7----------------------------| Pre-Chorus: e|----------------------------------------|---------------------------------| B|----------------------------------------|---------------------------------| G|----------------4-----1/2--2222---------|--------------------6---8--------| D|---1-----2------4-----xx---xxxxx--------|(3x)---------1---2--6---8--------| A|---1-----2------2-----1/2--2222---------|-------------1---2--4---6--------| D|---1-----2------------------------------|-------------1---2---------------| Chorus: e|------------------------------------------------|-------------------------| B|------------------------------------------------|-------------------------| G|--------------4-----------------------6----8----|-----------9----11-------| D|---6-----2----4------4--2--1-----2----6----8----|(2x)-------9----11-------| A|---6-----2----2------4--2--1-----2----4----6----|-----------7----9--------| D|---6-----2-----------4--2--1-----2--------------|-------------------------| Breakdown: Primeira Guitarra: e|-------------------------------------------------| B|-------------------------------------------------| G|--11---------------------------------------------| D|--9----9----7/9----------------------------------|(8x) A|--x----x----x------------------------------------| D|--9----9----7/9----------------------------------| Segunda Guitarra: e|-----------------------------------| B|-----------------------------------| G|---------4-------------------------| D|--1--2---4-------------------------|(8x) A|--1--2---2-------------------------| D|--1--2-----------------------------| Interludio. e|-----------------------|-------------6-6----------------------------------| B|-----------------------|-------------7-7---9-9---6-6----88888-------------| G|----------------4------|-------------8-8---9-9---6-6----88888-------------| D|---1-----2------4------|(4x)---------8-8---9-9---6-6----88888-------------| A|---1-----2------2------|-------------6-6---7-7---4-4----66666-------------| D|---1-----2-------------|--------------------------------------------------| Breakdown Outro: e|------------------------------------------------|-------------------------| B|------------------------------------------------|-------------------------| G|--------------4-----------------------6----8----|-----------9----11-------| D|---6-----2----x------4--2--1-----2----x----x----|(2x)-------9----11-------| A|---x-----x----2------x--x--x-----x----4----6----|-----------7----9--------| D|---6-----2-----------4--2--1-----2--------------|-------------------------| Chorus: e|------------------------------------------------|-------------------------| B|------------------------------------------------|-------------------------| G|--------------4-----------------------6----8----|-----------9----11-------| D|---6-----2----4------4--2--1-----2----6----8----|(2x)-------9----11-------| A|---6-----2----2------4--2--1-----2----4----6----|-----------7----9--------| D|---6-----2-----------4--2--1-----2--------------|-------------------------| Outro (Intro Novamente -.-)
Primeira Guitarra
e|----------------------------------------------------------------------| B|----------------------------------------------------------------------| G|--11----------------11------------------------------------------------| D|--9----9----7/9-----9----9-----12---14--------------------------------|(2x) A|--x----x----x-------x----x-----x-----x--------------------------------| D|--9----9----7/9-----9----9-----12---14--------------------------------|
Segunda Guitarra
e|-----------------------------------------------| B|-----------------------------------------------| G|--------------7--------------------------------| D|--9-----5-----7---7----------------------------| A|--9-----5-----5---7----------------------------| D|--9-----5---------7----------------------------| Primeira Guitarra e|-----------------------------------------------| B|-----------------------------------------------| G|--11~~~~---------------------------------------| D|--9~~~~----------------------------------------| A|--x~~~~----------------------------------------| D|--9~~~~----------------------------------------| Segunda Guitarra e|-----------------------------------------------| B|-----------------------------------------------| G|-----------------------------------------------| D|--9~~~~----------------------------------------| A|--9~~~~----------------------------------------| D|--9~~~~----------------------------------------|

quarta-feira, 17 de abril de 2013

Venho Avisar a todos com Muita alegria que o blog Cifra De Animes estará voltando a ativa Semana que vem!
   Façam seus pedidos aqui mesmo nos comentários que logo estaremos trazendo a música com a vídeo aula para vocês


segunda-feira, 17 de dezembro de 2012

domingo, 16 de dezembro de 2012

Diver - Naruto Shippuden - Tablatura


Bem minna,aqui está como prometido a minha primeira postagem official e minha primeira tablatura -q

Música: Diver
Banda: Nico Touches The Walls




E||----------5---------------------|
B||--5-5-5------5-5-5-5-7--------|
G||--------7--------------7--------|  2x
D||---------------------------------|
A||---------------------------------|
E||---------------------------------|


E||-------------------------------|------------------------------|

B||-------------------------------|------------------------------|
G||-------------------------------|------------------------------|
D||9--9--9--9----7--7--7--7----|--5--5--5--5----5--5--5--5--| 2x  
A||9--9--9--9----7--7--7--7----|--5--5--5--5----5--5--5--5--|           
E||7--7--7--7----5--5--5--5----|--3--3--3--3----3--3--3--3--|

(Quando for tocar a última vez de cada acorde  deixe-a soar um pouco).




    D        A       G
  
E||-2--------2-------3-------|
B||--3-------2-------3-------|
G||-2--------2---------------| 2x
D||---------------------------| 
A||------------------2--------|        
E||------------------3--------|

(Deixe cada acorde soar um pouco)
(No acorde de Sol faça váriações de batida).




E||-----10-9-----------------|

B||--10------10-------------|
G||-------------9------------|
D||---------------12-11-----|
A||--------------------------|
E||--------------------------|




E||----------------|------------------------|------------------------|------------------------|
B||----------------|------------------------|------------------------|------------------------|
G||-7-7-7-7-7-7--|-12-12-12-12-12-12--|-14-14-14-14-14-14--|-12-12-12-12-12-12--|
D||-7-7-7-7-7-7--|-12-12-12-12-12-12--|-14-14-14-14-14-14--|-12-12-12-12-12-12--|
A||-5-5-5-5-5-5--|-10-10-10-10-10-10--|-12-12-12-12-12-12--|-10-10-10-10-1--10--|
E||----------------|------------------------|------------------------|------------------------|



E||----------------------------|------------------------------------|------------------------------|

B||----------------------------|------------------------------------|------------------------------|
G||--7--7--7--7--7--7--------|--12--12--12--12--12--12--------|--14--14--14--14--14--14--|
D||--7--7--7--7--7--7--------|--12--12--12--12--12--12--------|--14--14--14--14--14--14--|
A||--5--5--5--5--5--5--------|--10--10--10--10--10--10--------|--12--12--12--12--12--12--|
E||----------------------------|------------------------------------|------------------------------|



E||----------------------------------------------------------------------|

B||---10--10-----10--10-----------9----------12----------------------|
G||-9---9------12--12-------------9-------11-----12-11--------------|
D||----------------------12-12-12----9-12--------------12------------|
A||-------------------------------------------------------14-12--------|
E||-------------------------------------------------------------12-10--|




E||-------------------|---------------|--------------|--------------|----------
----|
B||-------------------|---------------|--------------|--------------|-3--3--3--3--|
G||-------------------|-6--6--6--6--|-7--7--7--7--|-9--9--9--9--|-3--3--3--3--|
D||12--12--12--12--|-6--6--6--6--|-7--7--7--7--|-9--9--9--9--|-3--3--3--3--|
A||12--12--12--12--|-4--4--4--4--|-5--5--5--5--|-7--7--7--7--|--------------|
E||10--10--10--10--|---------------|--------------|---------------|-------------|



E||--------------------|---------------------|-------------------------
----|----------------------------|
B||--------------------|---------------------|-----------------------------|----------------------------|
G||--------------------|---------------------|-----------------------------|----------------------------|
D||9--9--9--9--9--9--|-7--7--7--7--7--7--|--5--5--5--5--5--5--5--5--|--5--5--5--5--5--5--5--5--|
A||9--9--9--9--9--9--|-7--7--7--7--7--7--|--5--5--5--5--5--5--5--5--|--5--5--5--5--5--5--5--5--|
E||7--7--7--7--7--7--|-5--5--5--5--5--5--|--3--3--3--3--3--3--3--3--|--3--3--3--3--3--3--3--3--|


E||---------|

B||---------|
G||---------|
D||--7--7--|
A||--7--7--|
E||--5--5--|


E||--------------------|---------------------|----------------------------|-----------------------------|
B||--------------------|---------------------|----------------------------|-----------------------------|
G||--------------------|---------------------|----------------------------|-----------------------------|
D||9--9--9--9--9--9--|-7--7--7--7--7--7--|--5--5--5--5--5--5--5--5--|--5--5--5--5--5--5--5--5--|
A||9--9--9--9--9--9--|-7--7--7--7--7--7--|--5--5--5--5--5--5--5--5--|--5--5--5--5--5--5--5--5--|
E||7--7--7--7--7--7--|-5--5--5--5--5--5--|--3--3--3--3--3--3--3--3--|--3--3--3--3--3--3--3--3--|


E||-----------|

B||-----------|
G||11--9--7--|
D||11--9--7--|
A||9---7--5--|
E||------------|


E||--------------------|---------------------|--------------------------|---------------------------|

B||--------------------|---------------------|--------------------------|---------------------------|
G||--------------------|---------------------|--------------------------|---------------------------|
D||9--9--9--9--9--9--|-7--7--7--7--7--7--|--5--5--5--5--5--5--5--5|--5--5--5--5--5--5--5--5|
A||9--9--9--9--9--9--|-7--7--7--7--7--7--|--5--5--5--5--5--5--5--5|--5--5--5--5--5--5--5--5|
E||7--7--7--7--7--7--|-5--5--5--5--5--5--|--3--3--3--3--3--3--3--3|--3--3--3--3--3--3--3--3|


E||--------|

B||--------|
G||--------|
D||--7--7--|
A||--7--7--|
E||--5--5--|



E||--------------------|---------------------|----------------------------|-----------------------------|

B||--------------------|---------------------|----------------------------|-----------------------------|
G||--------------------|---------------------|----------------------------|-----------------------------|
D||9--9--9--9--9--9--|-7--7--7--7--7--7--|--5--5--5--5--5--5--5--5--|--5--5--5--5--5--5--5--5--|
A||9--9--9--9--9--9--|-7--7--7--7--7--7--|--5--5--5--5--5--5--5--5--|--5--5--5--5--5--5--5--5--|
E||7--7--7--7--7--7--|-5--5--5--5--5--5--|--3--3--3--3--3--3--3--3--|--3--3--3--3--3--3--3--3--|


E||-----------|

B||-----------|
G||11--9--7--|
D||11--9--7--|
A||9---7--5--|
E||-----------|


E||--------------------|

B||--------------------|
G||--------------------|
D||--2----4----5------|  (Deixe soar cada acorde)
A||--2----4----5------|
E||-------2----3-------|






Novo Membro!

E ae Galera,aqui quem fala é o mais novo membro da equipe,LightningFenix(nick difícil de pronunciar em? u_u),se tiverem dificuldades podem apenas me chamar pelo meu nome,Pietro o/  ,bem apesar de eu ter me juntado a equipe bem recentemente eu irei a começar a trabalhar agora mesmo para que o blog consiga evoluir e recuperar o tempo perdido,na minha próxima postagem estarei pondo a tablatura que eu fiz da 8ª abertura do Naruto Shippuden,Diver da banda Nico Touches The Walls,então fiquem ligados -q .

sexta-feira, 30 de novembro de 2012

○+●(Cifra)


○+●(Cifra)
E B C#m7 G#m
koishikute setsunakute
E B C#m7 G#m
kurushikute aenakute
E B C#m7 G#m
memeshikute mijimedesa
E B
kakurenbo
C#m7
marumatte

(E B C#m7 G#m) Notas De Passagem

E B C#m7 G#m
kareta hana wo
E B C#m7 G#m
kimi ni ai wo
E B C#m7 G#m
boku wa karete
E B C#m7 G#m
shioretemo kamawanai

E B C#m7 G#m
mou iikai?
E B C#m7 G#m
mou iikai?
E B C#m7 G#m
mou iiyo...

E B C#m7 G#m
marumatta kono senaka
E B C#m7 G#m
karete shiorete kanashikute
E B C#m7 G#m
itsuno hika haru ga kuru
E B C#m7 G#m
tawagoto wa kiesatta

E B C#m7 G#m

marumatte

mou iiyo...

mou iino?

F C D#m7 A#m
koishikute setsunakute
F C D#m7 A#m
kurushikute aenakute
F C D#m7 A#m
memeshikute mijimedesa
F C D#m7 A#mv
kakurenbo

marumatte


domingo, 23 de setembro de 2012

Voltamos!

Opa Galerinha Tudo Bem Devido A Um Tempo Que Tivemos Que Parar Para Estudar, Não Publicamos Mais Nada, Mas Agora WE COME BACK! é Isso Ai Galera, Mandem Seus Pedidos De Video-Aulas Ou   Covers Nos Comentarios Em Nosso Canal Do Youtube Apartir De Hoje Começarei a Colocar Novas Cifras de Animes e Musicas Convencionais.

Nosso Canal Do Youtube: http://www.youtube.com/cifrasadeanime De Um Joinha e Se Inscrevam :)

Meu Face: https://www.facebook.com/marcos1495 - Para quem Quiser Entrar Em Contato.

Estamos Precisando De Musicos Interessados Para Entrar Em Nossa Equipe.
Quem Quiser Por Favor Basta Apenas Entrar Em Meu Face e Me Add e Conversar Comigo :P Bem Gente é 01:41 Da Manha kkk

Meu Ultimo Video Ai Pra Voces Com Uns Pequenos Erro Devido Ao INFELIZ DO MEU AMIGO QUE TAVA ME CHAMANDO NO SKYPE E EU NAO ESCUTEI NEM A GUITARRA E NEM A MUSICA! kkkk

Ah Tbm Estou Com Essa Nova Guitarra a Vendetta XM 1.0 Da Dean Guitars!

quarta-feira, 13 de junho de 2012

PACK DE MÚSICAS DE ANIMES ANTIGOS

Yo depois de muitas semanas sem novidades, estou voltando para postar as cifras xD

Bom nesse pack teremos 3 músicas

1ºChala Head Chala(Dragon Ball Z)





Intro
E|--------------------------------------------------------------------------
a|---------12---------------------------12--------------------------------------
d|-12-11-----12-11-11-11-9-9-12-11----12-11-11-11-9-9---9-9-7-7--
g|---------------------------------------------------------------------
b|--------------------------------------------------------------------------
e|--------------------------------------------------------------------------



|----------------------------------------------------------------------
|------------12-------------------------------------------------------
|-12-12-11----12~14-14-12-12-11-11---14-14-14-14--12--------
|---------------------------------------------------------------14----
|----------------------------------------------------------------------
|----------------------------------------------------------------------



|----------------------------------------------------------------------
|-------------------------12--14--15-17------------------------------
|-14-14-14-14-12-----------------------14-15-17-15-14-12-14----
|--------------------14------------------------------------------------
|----------------------------------------------------------------------
|----------------------------------------------------------------------



|----------------------------------------------------------------------
|------------12-------------------------------------------------------
|-12-12-11----12~14-14-12-12-11-11---14-14-14-14--12--------
|---------------------------------------------------------------14----
|----------------------------------------------------------------------
|----------------------------------------------------------------------



|----------------------------------------------------------------------
|-------------------------12--14--15-17------------------------------
|-14-14-14-14-12-----------------------14-15-17-15-14-12-14----
|--------------------14------------------------------------------------
|----------------------------------------------------------------------
|----------------------------------------------------------------------



|-----------------------------------------------------------------------
|-----------------------------------------------------------------------
|-16----16-14-12-11-9~12-11-11--7-7-------7------7---7-7------7-
|----16------------------------------------7-6----7-6----------7-6----
|-----------------------------------------------------------------------
|-----------------------------------------------------------------------



|------------------------------------------------------------------------
|------------------------------------------------------------------------
|------------------------------------------------------------------------
|-7-6-7-9-9~~~~--12--14--12-12--14------------14-------------14--
|-----------------------------------------12-13-12-----12-13-12------
|------------------------------------------------------------------------



|------------------------------------------------------------------------
|------------------------------------------------------------------------
|------------------------------------------------------------------------
|-14--12-12-----------------14-14-12-14---12--14--12-12--14------
|--------------13-13-12-12----------------------------------------12--
|------------------------------------------------------------------------



|-------------------------------------------------------------------------
|-------------------------------------------------------------------------
|-------------------------------------------------------------------------
|--------14------------14-14-12-12--12-12-14-15-15-15---12-12-14-
|-13-12----12-13-12----------------------------------------------------
|-------------------------------------------------------------------------



|-------------------------------------------------------------------------
|-------------------------------------------------------------------------
|-------------------------------------------------------------------------
|------------14-------------14-14-12--12-14-15~~~~~~--------------
|-12-13-12-----12-13-12-----------------------------------------------
|-------------------------------------------------------------------------
                                  DIGIMON-BRAVEHEART

Tom: C
  
Intro: Fmaj7 G Em7 Fmaj7
       Fmaj7 G Em7 Am7

Teclado: Fmaj7 G Em7 Am7

( Bb C/Bb Bb Bb C/Bb Bb )

F     G  Am        G    F      C
Nigetari akirameru koto wa daremo
F    G Am        G    F    G   Am    G/B
Isshun areba dekiru kara arukitsuzukeyou
     C          G/B        Am      G         F
Kimi ni shika dekinai koto ga aru aoi hoshi ni
       D/F#     G      G#º
Hikari ga nakusenu you ni
      C         G/B
Tsukame! egaita yume wo
    G#°            Am Am/G
Mamore! daiji na tomo wo
F       G7       C         G
Takumashii jibun ni nareru sa
     C            G/B
Shiranai pawaa ga yadoru
   G#º           Am Am/G
Haato ni hi ga tsuitara
    F   G      Em7    Am
Donna negai mo uso ja nai
Dm7       G   Ab Bb
Kitto kanau kara........
                     Fmaj7 G Em7 Am7
show me your brave heart

Teclado: Fmaj7 G Em7 Am7
         Bb C/Bb Bb Bb C/Bb Bb

F       G  Am         G    F        C
Hare no hi bakari ja nai kara tama ni
F     G  Am       G      F    G  Am    G/B
Tsumetai ame mo furu keredo kasa hirogeyou
     C        G/B        Am       G        F
Ikikata ni chizu nanka nai kedo dakara jiyuu

          D/F#   G        G#º
Doko e datte yukeru, kimi mo
     C             G/B
Hashire! kaze yori hayaku
    G#°           Am Am/G
Mezase! sora yori tooku
F      G7       C       G
Atarashii jibun ni aeru sa
     C              G/B     G#°           Am Am/G
Shiranai yuuki ga nemuru haato ni ki ga tsuitara
  F       G     Em7    Am
Mune no naka no doshaburi mo
Dm7      G    Ab Bb                     C
Kitto yamu kara…....show me your brave heart

(Solo)

      C           G/B
Tsukame! mabushii asu wo
    G#°           Am Am/G
Mamore! ai suru hito wo
F          G7    C         G
Takumashii jibun ni nareru sa
    C             G/B
Kowase! yowaki na kimi wo
    G#°           Am Am/G
Kuzuse! butsukaru kabe wo
 F      G   Em7     Am     Dm7  G7
Atsui kodou buki ni naru kara
                Fmaj7 G Em7 Am7
Believe in your heart

( Fmaj7 G Em7 Am7 )

( Bb C/Bb Bb Bb C/Bb Bb )

( C/Bb Fmaj7 )



                                          3º música
                                           Pokémon







Tom: A#
  
Gm             F
I wanna be the very best
     Gm         F
Like noone ever was
Cm                Bb
To catch them is my real test
   D#                D
To train them is my cause
Gm            F
I will travel across the land
Gm                 F
Searching far and wide
Cm              Bb
Each Pokemon to understand
    D#            D
The power that's inside

    D#
Pokemon!
     Bb
It's you and me
D#               F
I know it's my destiny
    Gm
Pokemon!
            F
Ooh, you're my best friend
   Cm              D
In a world we must defend
    Gm
Pokemon!
    F
Our hearts so true
    Cm           F
Our courage will pull us through
D#                Bb
You teach me and I'll teach you
Gm  F
Pokemon
                D#
Gotta catch 'em all!
                Gm
Gotta catch 'em all!

Gm              F
Every challenge along the way
     Gm             F
With courage I will face
Gm             Bb
I will battle every day
   D#                 D
To claim my rightful place
Gm                F
Come with me, the time is right
Gm                F
There's no better team
Gm               Bb
Arm in arm we'll win the fight
     D#               D
It's always been our dream

    D#
Pokemon!
     Bb
It's you and me
D#               F
I know it's my destiny
    Gm
Pokemon!
            F
Ooh, you're my best friend
   Cm              D
In a world we must defend
    Gm
Pokemon!
    F
Our hearts so true
    Cm           F
Our courage will pull us through
D#                Bb
You teach me and I'll teach you
Gm  F
Pokemon
                D#
Gotta catch 'em all!
                Gm
Gotta catch 'em all!


VLW GALERA ESPERO QUE GOSTEM!!